Home » Pehla Nasha Guitar Chords – Udit Narayan | भारत की अग्रणी गीत गीत साइट

Pehla Nasha Guitar Chords – Udit Narayan | भारत की अग्रणी गीत गीत साइट

Pehla Nasha Guitar Chords – Udit Narayan | गाने के बोल हर दिन अपडेट होते हैं

Tuning: Standard(E-A-D-G-B-e)
CHORDS: A#, C, Dm, F, G#

▼ Show Chords

Strumming Pattern: DD UUD DUDU
Capo: None

 

Pehla Nasha Guitar Chords Progression

Intro

▼ Show Whole Intro

e|---------------------------------------------------------------------------|
B|------------------13----------------------13-------------------------------|
G|--10-10-10-9h10-------10p9-10-10-10-9h10------10p9-7-77--------------------|
D|---------------------------------------------------------------------------|
A|---------------------------------------------------------------------------|
E|---------------------------------------------------------------------------|
e|---------------------------------------------------------------------------|
B|----------10---------------------------------------------------------------|
G|--7-9h10------10-10-12-12-12------10-12-12/14-12-10-9-10-------------------|
D|------------------------------10-------------------------------------------|
A|---------------------------------------------------------------------------|
E|---------------------------------------------------------------------------|

Single-strum the below chords.
(F)Chaahe tum kuchh (A#)na kaho
(F)maine sun li(C)ya,
(F)Ki saathi (C)pyaar ka
(Dm)mujhe chun (A#)liya,
Chun (C)liya, Maine Sun (C)liya.

Now with original strumming.
(F) (Dm) (A#) (C)
(F) (Dm) (A#) (C)

(F)Pehla na(Dm)sha, Peh(C)la khumaar
(F)Naya pyaar hai naya (C)intezaar
Kar (A#)loon main kya apna (F)haal.

(A#)Aye dil-e-beka(C)raar
(A#)Mere dil-e-beka(F)raar
Tu hi (C)bata
(F)Pehla na(Dm)sha, Peh(C)la khumaar.

(Dm) (C) (Dm) (C) (A#)

(F)Udta hi (Dm)firoon in ha(C)waon mein (F)kahin,
(F)Ya main jhool (Dm)jaoon in (C)ghataon mein (F)kahin.
(F)Udta hi (Dm)firoon in ha(C)waon mein (F)kahin,
(F)Ya main jhool (Dm)jaoon in (C)ghataon mein (F)kahin.
Ek (G#)kar doon aasmaan (F)zameen,
Kaho (G#)yaaron kya karoon kya (A#)nahin.
single-strum (A#)..(C)..(F)
immediately after the verse ends.

(F)Pehla na(Dm)sha, Peh(C)la khumaar
(F)Naya pyaar hai naya (C)intezaar
Kar (A#)loon main kya apna (F)haal
(A#)Aye dil-e-beka(C)raar
(A#)Mere dil-e-beka(F)raar
Tu hi (C)bata.

(A#)…(G#)…(A#)…(G#)…(F)

(F)Usne baat (Dm)ki kuchh (C)aise dhang (F)se,
(F)Sapne de (Dm)gaya vo ha(C)zaaron rang (F)ke. (pause)
(F)Usne baat (Dm)ki, kuchh (C)aise dhang (F)se,
(F)Sapne de (Dm)gaya vo ha(C)zaaron rang (F)ke.
Reh (G#)jaoon jaise main haar (F)ke,
Aur (G#)choome vo mujhe pyaar (A#)se.

(F)Pehla na(Dm)sha, Peh(C)la khumaar
(F)Naya pyaar hai naya (C)intezaar
Kar (A#)loon main kya apna (F)haal
(A#)Aye dil-e-beka(C)raar
(A#)Mere dil-e-beka(F)raar
Tu hi (C)bata.

More Songs On Similar Chords

  • Ae Zindagi Gale Laga Le Chords Dear Zindagi
    4/7 Chords Common – A#, C, Dm, F
  • Hamdard Chords – Without Capo – Arijit Singh
    4/5 Chords Common – A#, C, Dm, F
  • Khamoshiyan Guitar Chords – Arijit Singh
    4/7 Chords Common – A#, C, Dm, F
  • Jeena Jeena Guitar Chords – Atif Aslam
    4/7 Chords Common – A#, C, Dm, F
  • Emptiness Guitar Chords – Gajendra Verma
    4/5 Chords Common – A#, C, Dm, F

और भी बेहतरीन गाने के बोल यहां देखें: और देखें

विषय से संबंधित खोजें Pehla Nasha Guitar Chords – Udit Narayan

#Pehla #Nasha #Guitar #Chords #Udit #Narayan

Pehla Nasha Guitar Chords – Udit Narayan

हम आशा है कि यह जानकारी आपके लिए बहुत उपयोगी मूल्य लेकर आई है।

आपका बहुत बहुत धन्यवाद

समीक्षा Pehla Nasha Guitar Chords – Udit Narayan

Tuning: Standard(E-A-D-G-B-e)
CHORDS: A#, C, Dm, F, G#

▼ Show Chords

Strumming Pattern: DD UUD DUDU
Capo: None

 

Pehla Nasha Guitar Chords Progression

Intro

▼ Show Whole Intro

e|---------------------------------------------------------------------------|
B|------------------13----------------------13-------------------------------|
G|--10-10-10-9h10-------10p9-10-10-10-9h10------10p9-7-77--------------------|
D|---------------------------------------------------------------------------|
A|---------------------------------------------------------------------------|
E|---------------------------------------------------------------------------|
e|---------------------------------------------------------------------------|
B|----------10---------------------------------------------------------------|
G|--7-9h10------10-10-12-12-12------10-12-12/14-12-10-9-10-------------------|
D|------------------------------10-------------------------------------------|
A|---------------------------------------------------------------------------|
E|---------------------------------------------------------------------------|

Single-strum the below chords.
(F)Chaahe tum kuchh (A#)na kaho
(F)maine sun li(C)ya,
(F)Ki saathi (C)pyaar ka
(Dm)mujhe chun (A#)liya,
Chun (C)liya, Maine Sun (C)liya.

Now with original strumming.
(F) (Dm) (A#) (C)
(F) (Dm) (A#) (C)

(F)Pehla na(Dm)sha, Peh(C)la khumaar
(F)Naya pyaar hai naya (C)intezaar
Kar (A#)loon main kya apna (F)haal.

(A#)Aye dil-e-beka(C)raar
(A#)Mere dil-e-beka(F)raar
Tu hi (C)bata
(F)Pehla na(Dm)sha, Peh(C)la khumaar.

(Dm) (C) (Dm) (C) (A#)

(F)Udta hi (Dm)firoon in ha(C)waon mein (F)kahin,
(F)Ya main jhool (Dm)jaoon in (C)ghataon mein (F)kahin.
(F)Udta hi (Dm)firoon in ha(C)waon mein (F)kahin,
(F)Ya main jhool (Dm)jaoon in (C)ghataon mein (F)kahin.
Ek (G#)kar doon aasmaan (F)zameen,
Kaho (G#)yaaron kya karoon kya (A#)nahin.
single-strum (A#)..(C)..(F)
immediately after the verse ends.

(F)Pehla na(Dm)sha, Peh(C)la khumaar
(F)Naya pyaar hai naya (C)intezaar
Kar (A#)loon main kya apna (F)haal
(A#)Aye dil-e-beka(C)raar
(A#)Mere dil-e-beka(F)raar
Tu hi (C)bata.

(A#)…(G#)…(A#)…(G#)…(F)

(F)Usne baat (Dm)ki kuchh (C)aise dhang (F)se,
(F)Sapne de (Dm)gaya vo ha(C)zaaron rang (F)ke. (pause)
(F)Usne baat (Dm)ki, kuchh (C)aise dhang (F)se,
(F)Sapne de (Dm)gaya vo ha(C)zaaron rang (F)ke.
Reh (G#)jaoon jaise main haar (F)ke,
Aur (G#)choome vo mujhe pyaar (A#)se.

(F)Pehla na(Dm)sha, Peh(C)la khumaar
(F)Naya pyaar hai naya (C)intezaar
Kar (A#)loon main kya apna (F)haal
(A#)Aye dil-e-beka(C)raar
(A#)Mere dil-e-beka(F)raar
Tu hi (C)bata.

More Songs On Similar Chords

  • Ae Zindagi Gale Laga Le Chords Dear Zindagi
    4/7 Chords Common – A#, C, Dm, F
  • Hamdard Chords – Without Capo – Arijit Singh
    4/5 Chords Common – A#, C, Dm, F
  • Khamoshiyan Guitar Chords – Arijit Singh
    4/7 Chords Common – A#, C, Dm, F
  • Jeena Jeena Guitar Chords – Atif Aslam
    4/7 Chords Common – A#, C, Dm, F
  • Emptiness Guitar Chords – Gajendra Verma
    4/5 Chords Common – A#, C, Dm, F

5 thoughts on “Pehla Nasha Guitar Chords – Udit Narayan | भारत की अग्रणी गीत गीत साइट”

Leave a Reply

Your email address will not be published.